ISO-10303-21;
HEADER;
FILE_DESCRIPTION (( 'STEP AP203' ),
    '1' );
FILE_NAME ('B270-RNDF-25.4-1.STEP',
    '2021-01-05T01:23:28',
    ( '' ),
    ( '' ),
    'SwSTEP 2.0',
    'SolidWorks 2020',
    '' );
FILE_SCHEMA (( 'CONFIG_CONTROL_DESIGN' ));
ENDSEC;

DATA;
#1 = ORIENTED_EDGE ( 'NONE', *, *, #30, .T. ) ;
#2 = CARTESIAN_POINT ( 'NONE',  ( 0.000000000000000000, 0.000000000000000000, 0.000000000000000000 ) ) ;
#3 = PERSON_AND_ORGANIZATION ( #142, #10 ) ;
#4 = AXIS2_PLACEMENT_3D ( 'NONE', #133, #124, #99 ) ;
#5 = CARTESIAN_POINT ( 'NONE',  ( -1.187907395172932594E-15, 0.000000000000000000, 12.69999999999999929 ) ) ;
#6 = CARTESIAN_POINT ( 'NONE',  ( 1.999999999999998224, 0.000000000000000000, 0.000000000000000000 ) ) ;
#7 = SECURITY_CLASSIFICATION_LEVEL ( 'unclassified' ) ;
#8 = EDGE_CURVE ( 'NONE', #88, #35, #68, .T. ) ;
#9 = LINE ( 'NONE', #14, #108 ) ;
#10 = ORGANIZATION ( 'UNSPECIFIED', 'UNSPECIFIED', '' ) ;
#11 = ORIENTED_EDGE ( 'NONE', *, *, #70, .F. ) ;
#12 = CC_DESIGN_PERSON_AND_ORGANIZATION_ASSIGNMENT ( #52, #51, ( #85 ) ) ;
#13 = APPLICATION_CONTEXT ( 'configuration controlled 3d designs of mechanical parts and assemblies' ) ;
#14 = CARTESIAN_POINT ( 'NONE',  ( 0.000000000000000000, 0.000000000000000000, 12.69999999999999929 ) ) ;
#15 = CC_DESIGN_APPROVAL ( #66, ( #145 ) ) ;
#16 = CARTESIAN_POINT ( 'NONE',  ( -5.939536975864662969E-16, 12.69999999999999929, 0.000000000000000000 ) ) ;
#17 = CIRCLE ( 'NONE', #4, 12.69999999999999929 ) ;
#18 = DIRECTION ( 'NONE',  ( -1.000000000000000000, -0.000000000000000000, -0.000000000000000000 ) ) ;
#19 = DIRECTION ( 'NONE',  ( -1.000000000000000000, 0.000000000000000000, -0.000000000000000000 ) ) ;
#20 = APPLICATION_CONTEXT ( 'configuration controlled 3d designs of mechanical parts and assemblies' ) ;
#21 = APPROVAL_STATUS ( 'not_yet_approved' ) ;
#22 = ORIENTED_EDGE ( 'NONE', *, *, #38, .F. ) ;
#23 = PERSON_AND_ORGANIZATION_ROLE ( 'design_supplier' ) ;
#24 = EDGE_LOOP ( 'NONE', ( #65, #1 ) ) ;
#25 = PRODUCT_RELATED_PRODUCT_CATEGORY ( 'detail', '', ( #110 ) ) ;
#26 = DIRECTION ( 'NONE',  ( -1.000000000000000000, -0.000000000000000000, -0.000000000000000000 ) ) ;
#27 = PERSON_AND_ORGANIZATION_ROLE ( 'design_owner' ) ;
#28 = ADVANCED_BREP_SHAPE_REPRESENTATION ( 'B270-RNDF-25.4-1', ( #168, #98 ), #72 ) ;
#29 = APPROVAL_ROLE ( '' ) ;
#30 = EDGE_CURVE ( 'NONE', #35, #104, #17, .T. ) ;
#31 = CALENDAR_DATE ( 2021, 5, 1 ) ;
#32 = LOCAL_TIME ( 9, 23, 28.00000000000000000, #156 ) ;
#33 = UNCERTAINTY_MEASURE_WITH_UNIT (LENGTH_MEASURE( 1.000000000000000082E-05 ), #143, 'distance_accuracy_value', 'NONE');
#34 = CALENDAR_DATE ( 2021, 5, 1 ) ;
#35 = VERTEX_POINT ( 'NONE', #89 ) ;
#36 = COORDINATED_UNIVERSAL_TIME_OFFSET ( 8, 0, .AHEAD. ) ;
#37 = FACE_OUTER_BOUND ( 'NONE', #24, .T. ) ;
#38 = EDGE_CURVE ( 'NONE', #163, #104, #9, .T. ) ;
#39 = ORIENTED_EDGE ( 'NONE', *, *, #8, .F. ) ;
#40 = CC_DESIGN_APPROVAL ( #155, ( #85 ) ) ;
#41 = AXIS2_PLACEMENT_3D ( 'NONE', #115, #170, #166 ) ;
#42 = ORIENTED_EDGE ( 'NONE', *, *, #8, .T. ) ;
#43 = DATE_TIME_ROLE ( 'creation_date' ) ;
#44 = DIRECTION ( 'NONE',  ( -0.000000000000000000, 0.000000000000000000, 1.000000000000000000 ) ) ;
#45 = CC_DESIGN_SECURITY_CLASSIFICATION ( #85, ( #145 ) ) ;
#46 = MECHANICAL_CONTEXT ( 'NONE', #13, 'mechanical' ) ;
#47 = CC_DESIGN_DATE_AND_TIME_ASSIGNMENT ( #164, #43, ( #81 ) ) ;
#48 = APPROVAL_ROLE ( '' ) ;
#49 = CYLINDRICAL_SURFACE ( 'NONE', #134, 12.69999999999999929 ) ;
#50 = AXIS2_PLACEMENT_3D ( 'NONE', #16, #131, #144 ) ;
#51 = PERSON_AND_ORGANIZATION_ROLE ( 'classification_officer' ) ;
#52 = PERSON_AND_ORGANIZATION ( #142, #10 ) ;
#53 = PLANE ( 'NONE',  #50 ) ;
#54 = FACE_OUTER_BOUND ( 'NONE', #86, .T. ) ;
#55 = ORIENTED_EDGE ( 'NONE', *, *, #70, .T. ) ;
#56 = DIRECTION ( 'NONE',  ( -1.000000000000000000, -0.000000000000000000, -0.000000000000000000 ) ) ;
#57 = COORDINATED_UNIVERSAL_TIME_OFFSET ( 8, 0, .AHEAD. ) ;
#58 = APPROVAL_PERSON_ORGANIZATION ( #136, #155, #123 ) ;
#59 = CARTESIAN_POINT ( 'NONE',  ( 0.000000000000000000, 0.000000000000000000, 0.000000000000000000 ) ) ;
#60 = DIRECTION ( 'NONE',  ( 0.000000000000000000, 0.000000000000000000, 1.000000000000000000 ) ) ;
#61 = APPROVAL_STATUS ( 'not_yet_approved' ) ;
#62 = DATE_AND_TIME ( #146, #154 ) ;
#63 = AXIS2_PLACEMENT_3D ( 'NONE', #71, #126, #80 ) ;
#64 = CALENDAR_DATE ( 2021, 5, 1 ) ;
#65 = ORIENTED_EDGE ( 'NONE', *, *, #135, .T. ) ;
#66 = APPROVAL ( #151, 'UNSPECIFIED' ) ;
#67 = DESIGN_CONTEXT ( 'detailed design', #20, 'design' ) ;
#68 = LINE ( 'NONE', #82, #141 ) ;
#69 = EDGE_LOOP ( 'NONE', ( #122, #11 ) ) ;
#70 = EDGE_CURVE ( 'NONE', #88, #163, #129, .T. ) ;
#71 = CARTESIAN_POINT ( 'NONE',  ( 1.999999999999998224, 0.000000000000000000, 0.000000000000000000 ) ) ;
#72 =( GEOMETRIC_REPRESENTATION_CONTEXT ( 3 ) GLOBAL_UNCERTAINTY_ASSIGNED_CONTEXT ( ( #33 ) ) GLOBAL_UNIT_ASSIGNED_CONTEXT ( ( #143, #152, #139 ) ) REPRESENTATION_CONTEXT ( 'NONE', 'WORKASPACE' ) );
#73 = FACE_OUTER_BOUND ( 'NONE', #103, .T. ) ;
#74 = CARTESIAN_POINT ( 'NONE',  ( 1.999999999999999112, 12.69999999999999929, 0.000000000000000000 ) ) ;
#75 = PLANE ( 'NONE',  #92 ) ;
#76 = CIRCLE ( 'NONE', #171, 12.69999999999999929 ) ;
#77 = DIRECTION ( 'NONE',  ( 1.000000000000000000, 0.000000000000000000, 0.000000000000000000 ) ) ;
#78 = DATE_AND_TIME ( #31, #106 ) ;
#79 = PRODUCT_DEFINITION_SHAPE ( 'NONE', 'NONE',  #81 ) ;
#80 = DIRECTION ( 'NONE',  ( 0.000000000000000000, 0.000000000000000000, 1.000000000000000000 ) ) ;
#81 = PRODUCT_DEFINITION ( 'UNKNOWN', '', #145, #67 ) ;
#82 = CARTESIAN_POINT ( 'NONE',  ( 0.000000000000000000, 1.555301434917138433E-15, -12.69999999999999929 ) ) ;
#83 = DATE_TIME_ROLE ( 'classification_date' ) ;
#84 = CLOSED_SHELL ( 'NONE', ( #87, #161, #160, #101 ) ) ;
#85 = SECURITY_CLASSIFICATION ( '', '', #7 ) ;
#86 = EDGE_LOOP ( 'NONE', ( #112, #42, #148, #22 ) ) ;
#87 = ADVANCED_FACE ( 'NONE', ( #54 ), #113, .T. ) ;
#88 = VERTEX_POINT ( 'NONE', #173 ) ;
#89 = CARTESIAN_POINT ( 'NONE',  ( -1.187907395172932594E-15, 1.555301434917138433E-15, -12.69999999999999929 ) ) ;
#90 = PERSON_AND_ORGANIZATION_ROLE ( 'creator' ) ;
#91 = DIRECTION ( 'NONE',  ( 0.000000000000000000, 0.000000000000000000, 1.000000000000000000 ) ) ;
#92 = AXIS2_PLACEMENT_3D ( 'NONE', #74, #19, #44 ) ;
#93 = APPROVAL ( #61, 'UNSPECIFIED' ) ;
#94 = CARTESIAN_POINT ( 'NONE',  ( 1.999999999999998224, 0.000000000000000000, 12.69999999999999929 ) ) ;
#95 = APPROVAL_PERSON_ORGANIZATION ( #105, #66, #29 ) ;
#96 = CARTESIAN_POINT ( 'NONE',  ( 0.000000000000000000, 0.000000000000000000, 0.000000000000000000 ) ) ;
#97 = APPROVAL_DATE_TIME ( #147, #66 ) ;
#98 = AXIS2_PLACEMENT_3D ( 'NONE', #59, #60, #77 ) ;
#99 = DIRECTION ( 'NONE',  ( 0.000000000000000000, 0.000000000000000000, 1.000000000000000000 ) ) ;
#100 = COORDINATED_UNIVERSAL_TIME_OFFSET ( 8, 0, .AHEAD. ) ;
#101 = ADVANCED_FACE ( 'NONE', ( #37 ), #53, .F. ) ;
#102 = CIRCLE ( 'NONE', #41, 12.69999999999999929 ) ;
#103 = EDGE_LOOP ( 'NONE', ( #39, #55, #162, #137 ) ) ;
#104 = VERTEX_POINT ( 'NONE', #5 ) ;
#105 = PERSON_AND_ORGANIZATION ( #142, #10 ) ;
#106 = LOCAL_TIME ( 9, 23, 28.00000000000000000, #153 ) ;
#107 = PERSON_AND_ORGANIZATION ( #142, #10 ) ;
#108 = VECTOR ( 'NONE', #175, 1000.000000000000000 ) ;
#109 = APPLICATION_PROTOCOL_DEFINITION ( 'international standard', 'config_control_design', 1994, #13 ) ;
#110 = PRODUCT ( 'B270-RNDF-25.4-1', 'B270-RNDF-25.4-1', '', ( #46 ) ) ;
#111 = PERSON_AND_ORGANIZATION_ROLE ( 'creator' ) ;
#112 = ORIENTED_EDGE ( 'NONE', *, *, #132, .T. ) ;
#113 = CYLINDRICAL_SURFACE ( 'NONE', #149, 12.69999999999999929 ) ;
#114 = CALENDAR_DATE ( 2021, 5, 1 ) ;
#115 = CARTESIAN_POINT ( 'NONE',  ( -1.187907395172932594E-15, 0.000000000000000000, 0.000000000000000000 ) ) ;
#116 = DIRECTION ( 'NONE',  ( 0.000000000000000000, 0.000000000000000000, 1.000000000000000000 ) ) ;
#117 = APPLICATION_PROTOCOL_DEFINITION ( 'international standard', 'config_control_design', 1994, #20 ) ;
#118 = DIRECTION ( 'NONE',  ( -1.000000000000000000, -0.000000000000000000, -0.000000000000000000 ) ) ;
#119 = APPROVAL_PERSON_ORGANIZATION ( #169, #93, #48 ) ;
#120 = PERSON_AND_ORGANIZATION ( #142, #10 ) ;
#121 = APPROVAL_DATE_TIME ( #62, #155 ) ;
#122 = ORIENTED_EDGE ( 'NONE', *, *, #132, .F. ) ;
#123 = APPROVAL_ROLE ( '' ) ;
#124 = DIRECTION ( 'NONE',  ( -1.000000000000000000, -0.000000000000000000, -0.000000000000000000 ) ) ;
#125 = LOCAL_TIME ( 9, 23, 28.00000000000000000, #100 ) ;
#126 = DIRECTION ( 'NONE',  ( -1.000000000000000000, -0.000000000000000000, -0.000000000000000000 ) ) ;
#127 = CC_DESIGN_PERSON_AND_ORGANIZATION_ASSIGNMENT ( #3, #90, ( #81 ) ) ;
#128 = APPROVAL_DATE_TIME ( #78, #93 ) ;
#129 = CIRCLE ( 'NONE', #63, 12.69999999999999929 ) ;
#130 = CC_DESIGN_PERSON_AND_ORGANIZATION_ASSIGNMENT ( #120, #111, ( #145 ) ) ;
#131 = DIRECTION ( 'NONE',  ( 1.000000000000000000, 0.000000000000000000, 0.000000000000000000 ) ) ;
#132 = EDGE_CURVE ( 'NONE', #163, #88, #76, .T. ) ;
#133 = CARTESIAN_POINT ( 'NONE',  ( -1.187907395172932594E-15, 0.000000000000000000, 0.000000000000000000 ) ) ;
#134 = AXIS2_PLACEMENT_3D ( 'NONE', #96, #18, #116 ) ;
#135 = EDGE_CURVE ( 'NONE', #104, #35, #102, .T. ) ;
#136 = PERSON_AND_ORGANIZATION ( #142, #10 ) ;
#137 = ORIENTED_EDGE ( 'NONE', *, *, #30, .F. ) ;
#138 = FACE_OUTER_BOUND ( 'NONE', #69, .T. ) ;
#139 =( NAMED_UNIT ( * ) SI_UNIT ( $, .STERADIAN. ) SOLID_ANGLE_UNIT ( ) );
#140 = CC_DESIGN_PERSON_AND_ORGANIZATION_ASSIGNMENT ( #172, #23, ( #145 ) ) ;
#141 = VECTOR ( 'NONE', #26, 1000.000000000000000 ) ;
#142 = PERSON ( 'UNSPECIFIED', 'UNSPECIFIED', 'UNSPECIFIED', ('UNSPECIFIED'), ('UNSPECIFIED'), ('UNSPECIFIED') ) ;
#143 =( LENGTH_UNIT ( ) NAMED_UNIT ( * ) SI_UNIT ( .MILLI., .METRE. ) );
#144 = DIRECTION ( 'NONE',  ( 0.000000000000000000, 0.000000000000000000, -1.000000000000000000 ) ) ;
#145 = PRODUCT_DEFINITION_FORMATION_WITH_SPECIFIED_SOURCE ( 'ANY', '', #110, .NOT_KNOWN. ) ;
#146 = CALENDAR_DATE ( 2021, 5, 1 ) ;
#147 = DATE_AND_TIME ( #34, #125 ) ;
#148 = ORIENTED_EDGE ( 'NONE', *, *, #135, .F. ) ;
#149 = AXIS2_PLACEMENT_3D ( 'NONE', #2, #56, #159 ) ;
#150 = CC_DESIGN_PERSON_AND_ORGANIZATION_ASSIGNMENT ( #107, #27, ( #110 ) ) ;
#151 = APPROVAL_STATUS ( 'not_yet_approved' ) ;
#152 =( NAMED_UNIT ( * ) PLANE_ANGLE_UNIT ( ) SI_UNIT ( $, .RADIAN. ) );
#153 = COORDINATED_UNIVERSAL_TIME_OFFSET ( 8, 0, .AHEAD. ) ;
#154 = LOCAL_TIME ( 9, 23, 28.00000000000000000, #36 ) ;
#155 = APPROVAL ( #21, 'UNSPECIFIED' ) ;
#156 = COORDINATED_UNIVERSAL_TIME_OFFSET ( 8, 0, .AHEAD. ) ;
#157 = SHAPE_DEFINITION_REPRESENTATION ( #79, #28 ) ;
#158 = DATE_AND_TIME ( #64, #32 ) ;
#159 = DIRECTION ( 'NONE',  ( 0.000000000000000000, 0.000000000000000000, 1.000000000000000000 ) ) ;
#160 = ADVANCED_FACE ( 'NONE', ( #138 ), #75, .F. ) ;
#161 = ADVANCED_FACE ( 'NONE', ( #73 ), #49, .T. ) ;
#162 = ORIENTED_EDGE ( 'NONE', *, *, #38, .T. ) ;
#163 = VERTEX_POINT ( 'NONE', #94 ) ;
#164 = DATE_AND_TIME ( #114, #167 ) ;
#165 = CC_DESIGN_APPROVAL ( #93, ( #81 ) ) ;
#166 = DIRECTION ( 'NONE',  ( 0.000000000000000000, 0.000000000000000000, 1.000000000000000000 ) ) ;
#167 = LOCAL_TIME ( 9, 23, 28.00000000000000000, #57 ) ;
#168 = MANIFOLD_SOLID_BREP ( 'Ðý×', #84 ) ;
#169 = PERSON_AND_ORGANIZATION ( #142, #10 ) ;
#170 = DIRECTION ( 'NONE',  ( -1.000000000000000000, -0.000000000000000000, -0.000000000000000000 ) ) ;
#171 = AXIS2_PLACEMENT_3D ( 'NONE', #6, #118, #91 ) ;
#172 = PERSON_AND_ORGANIZATION ( #142, #10 ) ;
#173 = CARTESIAN_POINT ( 'NONE',  ( 1.999999999999998224, 1.555301434917138433E-15, -12.69999999999999929 ) ) ;
#174 = CC_DESIGN_DATE_AND_TIME_ASSIGNMENT ( #158, #83, ( #85 ) ) ;
#175 = DIRECTION ( 'NONE',  ( -1.000000000000000000, -0.000000000000000000, -0.000000000000000000 ) ) ;
ENDSEC;
END-ISO-10303-21;
